ISO-10303-21;
HEADER;
/* Generated by software containing ST-Developer
 * from STEP Tools, Inc. (www.steptools.com) 
 */

FILE_DESCRIPTION(
/* description */ (''),
/* implementation_level */ '2;1');

FILE_NAME(
/* name */ 
'/Users/user/Desktop/2021-09-04 mullvad fpga/mta1-signer-master/hw/mta
1_signer/pcb/mta1_signer_pmod/lib/kicad-pmod/pmod-conn_6x2.pretty/3d f
ile/Ferriit bead-0603.step',
/* time_stamp */ '2021-09-04T15:08:00+02:00',
/* author */ (''),
/* organization */ (''),
/* preprocessor_version */ 'ST-DEVELOPER v18.1',
/* originating_system */ 'Autodesk Translation Framework v10.10.0.1391',

/* authorisation */ '');

FILE_SCHEMA (('AUTOMOTIVE_DESIGN { 1 0 10303 214 3 1 1 }'));
ENDSEC;

DATA;
#10=MECHANICAL_DESIGN_GEOMETRIC_PRESENTATION_REPRESENTATION('',(#13,#14,
#15),#485);
#11=SHAPE_REPRESENTATION_RELATIONSHIP('SRR','None',#492,#12);
#12=ADVANCED_BREP_SHAPE_REPRESENTATION('',(#16,#17,#18),#484);
#13=STYLED_ITEM('',(#502),#16);
#14=STYLED_ITEM('',(#503),#17);
#15=STYLED_ITEM('',(#503),#18);
#16=MANIFOLD_SOLID_BREP('Body1',#295);
#17=MANIFOLD_SOLID_BREP('Body2',#296);
#18=MANIFOLD_SOLID_BREP('Body3',#297);
#19=FACE_OUTER_BOUND('',#37,.T.);
#20=FACE_OUTER_BOUND('',#38,.T.);
#21=FACE_OUTER_BOUND('',#39,.T.);
#22=FACE_OUTER_BOUND('',#40,.T.);
#23=FACE_OUTER_BOUND('',#41,.T.);
#24=FACE_OUTER_BOUND('',#42,.T.);
#25=FACE_OUTER_BOUND('',#43,.T.);
#26=FACE_OUTER_BOUND('',#44,.T.);
#27=FACE_OUTER_BOUND('',#45,.T.);
#28=FACE_OUTER_BOUND('',#46,.T.);
#29=FACE_OUTER_BOUND('',#47,.T.);
#30=FACE_OUTER_BOUND('',#48,.T.);
#31=FACE_OUTER_BOUND('',#49,.T.);
#32=FACE_OUTER_BOUND('',#50,.T.);
#33=FACE_OUTER_BOUND('',#51,.T.);
#34=FACE_OUTER_BOUND('',#52,.T.);
#35=FACE_OUTER_BOUND('',#53,.T.);
#36=FACE_OUTER_BOUND('',#54,.T.);
#37=EDGE_LOOP('',(#187,#188,#189,#190));
#38=EDGE_LOOP('',(#191,#192,#193,#194));
#39=EDGE_LOOP('',(#195,#196,#197,#198));
#40=EDGE_LOOP('',(#199,#200,#201,#202));
#41=EDGE_LOOP('',(#203,#204,#205,#206));
#42=EDGE_LOOP('',(#207,#208,#209,#210));
#43=EDGE_LOOP('',(#211,#212,#213,#214));
#44=EDGE_LOOP('',(#215,#216,#217,#218));
#45=EDGE_LOOP('',(#219,#220,#221,#222));
#46=EDGE_LOOP('',(#223,#224,#225,#226));
#47=EDGE_LOOP('',(#227,#228,#229,#230));
#48=EDGE_LOOP('',(#231,#232,#233,#234));
#49=EDGE_LOOP('',(#235,#236,#237,#238));
#50=EDGE_LOOP('',(#239,#240,#241,#242));
#51=EDGE_LOOP('',(#243,#244,#245,#246));
#52=EDGE_LOOP('',(#247,#248,#249,#250));
#53=EDGE_LOOP('',(#251,#252,#253,#254));
#54=EDGE_LOOP('',(#255,#256,#257,#258));
#55=LINE('',#407,#91);
#56=LINE('',#409,#92);
#57=LINE('',#411,#93);
#58=LINE('',#412,#94);
#59=LINE('',#415,#95);
#60=LINE('',#417,#96);
#61=LINE('',#418,#97);
#62=LINE('',#421,#98);
#63=LINE('',#423,#99);
#64=LINE('',#424,#100);
#65=LINE('',#426,#101);
#66=LINE('',#427,#102);
#67=LINE('',#433,#103);
#68=LINE('',#435,#104);
#69=LINE('',#437,#105);
#70=LINE('',#438,#106);
#71=LINE('',#441,#107);
#72=LINE('',#443,#108);
#73=LINE('',#444,#109);
#74=LINE('',#447,#110);
#75=LINE('',#449,#111);
#76=LINE('',#450,#112);
#77=LINE('',#452,#113);
#78=LINE('',#453,#114);
#79=LINE('',#459,#115);
#80=LINE('',#461,#116);
#81=LINE('',#463,#117);
#82=LINE('',#464,#118);
#83=LINE('',#467,#119);
#84=LINE('',#469,#120);
#85=LINE('',#470,#121);
#86=LINE('',#473,#122);
#87=LINE('',#475,#123);
#88=LINE('',#476,#124);
#89=LINE('',#478,#125);
#90=LINE('',#479,#126);
#91=VECTOR('',#333,10.);
#92=VECTOR('',#334,10.);
#93=VECTOR('',#335,10.);
#94=VECTOR('',#336,10.);
#95=VECTOR('',#339,10.);
#96=VECTOR('',#340,10.);
#97=VECTOR('',#341,10.);
#98=VECTOR('',#344,10.);
#99=VECTOR('',#345,10.);
#100=VECTOR('',#346,10.);
#101=VECTOR('',#349,10.);
#102=VECTOR('',#350,10.);
#103=VECTOR('',#357,10.);
#104=VECTOR('',#358,10.);
#105=VECTOR('',#359,10.);
#106=VECTOR('',#360,10.);
#107=VECTOR('',#363,10.);
#108=VECTOR('',#364,10.);
#109=VECTOR('',#365,10.);
#110=VECTOR('',#368,10.);
#111=VECTOR('',#369,10.);
#112=VECTOR('',#370,10.);
#113=VECTOR('',#373,10.);
#114=VECTOR('',#374,10.);
#115=VECTOR('',#381,10.);
#116=VECTOR('',#382,10.);
#117=VECTOR('',#383,10.);
#118=VECTOR('',#384,10.);
#119=VECTOR('',#387,10.);
#120=VECTOR('',#388,10.);
#121=VECTOR('',#389,10.);
#122=VECTOR('',#392,10.);
#123=VECTOR('',#393,10.);
#124=VECTOR('',#394,10.);
#125=VECTOR('',#397,10.);
#126=VECTOR('',#398,10.);
#127=VERTEX_POINT('',#405);
#128=VERTEX_POINT('',#406);
#129=VERTEX_POINT('',#408);
#130=VERTEX_POINT('',#410);
#131=VERTEX_POINT('',#414);
#132=VERTEX_POINT('',#416);
#133=VERTEX_POINT('',#420);
#134=VERTEX_POINT('',#422);
#135=VERTEX_POINT('',#431);
#136=VERTEX_POINT('',#432);
#137=VERTEX_POINT('',#434);
#138=VERTEX_POINT('',#436);
#139=VERTEX_POINT('',#440);
#140=VERTEX_POINT('',#442);
#141=VERTEX_POINT('',#446);
#142=VERTEX_POINT('',#448);
#143=VERTEX_POINT('',#457);
#144=VERTEX_POINT('',#458);
#145=VERTEX_POINT('',#460);
#146=VERTEX_POINT('',#462);
#147=VERTEX_POINT('',#466);
#148=VERTEX_POINT('',#468);
#149=VERTEX_POINT('',#472);
#150=VERTEX_POINT('',#474);
#151=EDGE_CURVE('',#127,#128,#55,.T.);
#152=EDGE_CURVE('',#128,#129,#56,.T.);
#153=EDGE_CURVE('',#130,#129,#57,.T.);
#154=EDGE_CURVE('',#127,#130,#58,.T.);
#155=EDGE_CURVE('',#127,#131,#59,.T.);
#156=EDGE_CURVE('',#132,#130,#60,.T.);
#157=EDGE_CURVE('',#131,#132,#61,.T.);
#158=EDGE_CURVE('',#133,#131,#62,.T.);
#159=EDGE_CURVE('',#134,#132,#63,.T.);
#160=EDGE_CURVE('',#133,#134,#64,.T.);
#161=EDGE_CURVE('',#128,#133,#65,.T.);
#162=EDGE_CURVE('',#129,#134,#66,.T.);
#163=EDGE_CURVE('',#135,#136,#67,.T.);
#164=EDGE_CURVE('',#136,#137,#68,.T.);
#165=EDGE_CURVE('',#138,#137,#69,.T.);
#166=EDGE_CURVE('',#135,#138,#70,.T.);
#167=EDGE_CURVE('',#139,#135,#71,.T.);
#168=EDGE_CURVE('',#140,#138,#72,.T.);
#169=EDGE_CURVE('',#139,#140,#73,.T.);
#170=EDGE_CURVE('',#141,#139,#74,.T.);
#171=EDGE_CURVE('',#142,#140,#75,.T.);
#172=EDGE_CURVE('',#141,#142,#76,.T.);
#173=EDGE_CURVE('',#136,#141,#77,.T.);
#174=EDGE_CURVE('',#137,#142,#78,.T.);
#175=EDGE_CURVE('',#143,#144,#79,.T.);
#176=EDGE_CURVE('',#144,#145,#80,.T.);
#177=EDGE_CURVE('',#146,#145,#81,.T.);
#178=EDGE_CURVE('',#143,#146,#82,.T.);
#179=EDGE_CURVE('',#143,#147,#83,.T.);
#180=EDGE_CURVE('',#148,#146,#84,.T.);
#181=EDGE_CURVE('',#147,#148,#85,.T.);
#182=EDGE_CURVE('',#149,#147,#86,.T.);
#183=EDGE_CURVE('',#150,#148,#87,.T.);
#184=EDGE_CURVE('',#149,#150,#88,.T.);
#185=EDGE_CURVE('',#144,#149,#89,.T.);
#186=EDGE_CURVE('',#145,#150,#90,.T.);
#187=ORIENTED_EDGE('',*,*,#151,.T.);
#188=ORIENTED_EDGE('',*,*,#152,.T.);
#189=ORIENTED_EDGE('',*,*,#153,.F.);
#190=ORIENTED_EDGE('',*,*,#154,.F.);
#191=ORIENTED_EDGE('',*,*,#155,.F.);
#192=ORIENTED_EDGE('',*,*,#154,.T.);
#193=ORIENTED_EDGE('',*,*,#156,.F.);
#194=ORIENTED_EDGE('',*,*,#157,.F.);
#195=ORIENTED_EDGE('',*,*,#158,.T.);
#196=ORIENTED_EDGE('',*,*,#157,.T.);
#197=ORIENTED_EDGE('',*,*,#159,.F.);
#198=ORIENTED_EDGE('',*,*,#160,.F.);
#199=ORIENTED_EDGE('',*,*,#161,.T.);
#200=ORIENTED_EDGE('',*,*,#160,.T.);
#201=ORIENTED_EDGE('',*,*,#162,.F.);
#202=ORIENTED_EDGE('',*,*,#152,.F.);
#203=ORIENTED_EDGE('',*,*,#162,.T.);
#204=ORIENTED_EDGE('',*,*,#159,.T.);
#205=ORIENTED_EDGE('',*,*,#156,.T.);
#206=ORIENTED_EDGE('',*,*,#153,.T.);
#207=ORIENTED_EDGE('',*,*,#161,.F.);
#208=ORIENTED_EDGE('',*,*,#151,.F.);
#209=ORIENTED_EDGE('',*,*,#155,.T.);
#210=ORIENTED_EDGE('',*,*,#158,.F.);
#211=ORIENTED_EDGE('',*,*,#163,.T.);
#212=ORIENTED_EDGE('',*,*,#164,.T.);
#213=ORIENTED_EDGE('',*,*,#165,.F.);
#214=ORIENTED_EDGE('',*,*,#166,.F.);
#215=ORIENTED_EDGE('',*,*,#167,.T.);
#216=ORIENTED_EDGE('',*,*,#166,.T.);
#217=ORIENTED_EDGE('',*,*,#168,.F.);
#218=ORIENTED_EDGE('',*,*,#169,.F.);
#219=ORIENTED_EDGE('',*,*,#170,.T.);
#220=ORIENTED_EDGE('',*,*,#169,.T.);
#221=ORIENTED_EDGE('',*,*,#171,.F.);
#222=ORIENTED_EDGE('',*,*,#172,.F.);
#223=ORIENTED_EDGE('',*,*,#173,.T.);
#224=ORIENTED_EDGE('',*,*,#172,.T.);
#225=ORIENTED_EDGE('',*,*,#174,.F.);
#226=ORIENTED_EDGE('',*,*,#164,.F.);
#227=ORIENTED_EDGE('',*,*,#174,.T.);
#228=ORIENTED_EDGE('',*,*,#171,.T.);
#229=ORIENTED_EDGE('',*,*,#168,.T.);
#230=ORIENTED_EDGE('',*,*,#165,.T.);
#231=ORIENTED_EDGE('',*,*,#173,.F.);
#232=ORIENTED_EDGE('',*,*,#163,.F.);
#233=ORIENTED_EDGE('',*,*,#167,.F.);
#234=ORIENTED_EDGE('',*,*,#170,.F.);
#235=ORIENTED_EDGE('',*,*,#175,.T.);
#236=ORIENTED_EDGE('',*,*,#176,.T.);
#237=ORIENTED_EDGE('',*,*,#177,.F.);
#238=ORIENTED_EDGE('',*,*,#178,.F.);
#239=ORIENTED_EDGE('',*,*,#179,.F.);
#240=ORIENTED_EDGE('',*,*,#178,.T.);
#241=ORIENTED_EDGE('',*,*,#180,.F.);
#242=ORIENTED_EDGE('',*,*,#181,.F.);
#243=ORIENTED_EDGE('',*,*,#182,.T.);
#244=ORIENTED_EDGE('',*,*,#181,.T.);
#245=ORIENTED_EDGE('',*,*,#183,.F.);
#246=ORIENTED_EDGE('',*,*,#184,.F.);
#247=ORIENTED_EDGE('',*,*,#185,.T.);
#248=ORIENTED_EDGE('',*,*,#184,.T.);
#249=ORIENTED_EDGE('',*,*,#186,.F.);
#250=ORIENTED_EDGE('',*,*,#176,.F.);
#251=ORIENTED_EDGE('',*,*,#186,.T.);
#252=ORIENTED_EDGE('',*,*,#183,.T.);
#253=ORIENTED_EDGE('',*,*,#180,.T.);
#254=ORIENTED_EDGE('',*,*,#177,.T.);
#255=ORIENTED_EDGE('',*,*,#185,.F.);
#256=ORIENTED_EDGE('',*,*,#175,.F.);
#257=ORIENTED_EDGE('',*,*,#179,.T.);
#258=ORIENTED_EDGE('',*,*,#182,.F.);
#259=PLANE('',#311);
#260=PLANE('',#312);
#261=PLANE('',#313);
#262=PLANE('',#314);
#263=PLANE('',#315);
#264=PLANE('',#316);
#265=PLANE('',#317);
#266=PLANE('',#318);
#267=PLANE('',#319);
#268=PLANE('',#320);
#269=PLANE('',#321);
#270=PLANE('',#322);
#271=PLANE('',#323);
#272=PLANE('',#324);
#273=PLANE('',#325);
#274=PLANE('',#326);
#275=PLANE('',#327);
#276=PLANE('',#328);
#277=ADVANCED_FACE('',(#19),#259,.T.);
#278=ADVANCED_FACE('',(#20),#260,.T.);
#279=ADVANCED_FACE('',(#21),#261,.T.);
#280=ADVANCED_FACE('',(#22),#262,.T.);
#281=ADVANCED_FACE('',(#23),#263,.T.);
#282=ADVANCED_FACE('',(#24),#264,.F.);
#283=ADVANCED_FACE('',(#25),#265,.T.);
#284=ADVANCED_FACE('',(#26),#266,.T.);
#285=ADVANCED_FACE('',(#27),#267,.T.);
#286=ADVANCED_FACE('',(#28),#268,.T.);
#287=ADVANCED_FACE('',(#29),#269,.T.);
#288=ADVANCED_FACE('',(#30),#270,.F.);
#289=ADVANCED_FACE('',(#31),#271,.T.);
#290=ADVANCED_FACE('',(#32),#272,.T.);
#291=ADVANCED_FACE('',(#33),#273,.T.);
#292=ADVANCED_FACE('',(#34),#274,.T.);
#293=ADVANCED_FACE('',(#35),#275,.T.);
#294=ADVANCED_FACE('',(#36),#276,.F.);
#295=CLOSED_SHELL('',(#277,#278,#279,#280,#281,#282));
#296=CLOSED_SHELL('',(#283,#284,#285,#286,#287,#288));
#297=CLOSED_SHELL('',(#289,#290,#291,#292,#293,#294));
#298=DERIVED_UNIT_ELEMENT(#300,1.);
#299=DERIVED_UNIT_ELEMENT(#487,-3.);
#300=(
MASS_UNIT()
NAMED_UNIT(*)
SI_UNIT(.KILO.,.GRAM.)
);
#301=DERIVED_UNIT((#298,#299));
#302=MEASURE_REPRESENTATION_ITEM('density measure',
POSITIVE_RATIO_MEASURE(7850.),#301);
#303=PROPERTY_DEFINITION_REPRESENTATION(#308,#305);
#304=PROPERTY_DEFINITION_REPRESENTATION(#309,#306);
#305=REPRESENTATION('material name',(#307),#484);
#306=REPRESENTATION('density',(#302),#484);
#307=DESCRIPTIVE_REPRESENTATION_ITEM('Steel','Steel');
#308=PROPERTY_DEFINITION('material property','material name',#494);
#309=PROPERTY_DEFINITION('material property','density of part',#494);
#310=AXIS2_PLACEMENT_3D('placement',#403,#329,#330);
#311=AXIS2_PLACEMENT_3D('',#404,#331,#332);
#312=AXIS2_PLACEMENT_3D('',#413,#337,#338);
#313=AXIS2_PLACEMENT_3D('',#419,#342,#343);
#314=AXIS2_PLACEMENT_3D('',#425,#347,#348);
#315=AXIS2_PLACEMENT_3D('',#428,#351,#352);
#316=AXIS2_PLACEMENT_3D('',#429,#353,#354);
#317=AXIS2_PLACEMENT_3D('',#430,#355,#356);
#318=AXIS2_PLACEMENT_3D('',#439,#361,#362);
#319=AXIS2_PLACEMENT_3D('',#445,#366,#367);
#320=AXIS2_PLACEMENT_3D('',#451,#371,#372);
#321=AXIS2_PLACEMENT_3D('',#454,#375,#376);
#322=AXIS2_PLACEMENT_3D('',#455,#377,#378);
#323=AXIS2_PLACEMENT_3D('',#456,#379,#380);
#324=AXIS2_PLACEMENT_3D('',#465,#385,#386);
#325=AXIS2_PLACEMENT_3D('',#471,#390,#391);
#326=AXIS2_PLACEMENT_3D('',#477,#395,#396);
#327=AXIS2_PLACEMENT_3D('',#480,#399,#400);
#328=AXIS2_PLACEMENT_3D('',#481,#401,#402);
#329=DIRECTION('axis',(0.,0.,1.));
#330=DIRECTION('refdir',(1.,0.,0.));
#331=DIRECTION('center_axis',(0.,0.,-1.));
#332=DIRECTION('ref_axis',(-1.,0.,0.));
#333=DIRECTION('',(-1.,0.,0.));
#334=DIRECTION('',(0.,1.,0.));
#335=DIRECTION('',(-1.,0.,0.));
#336=DIRECTION('',(0.,1.,0.));
#337=DIRECTION('center_axis',(1.,0.,-5.55111512312578E-15));
#338=DIRECTION('ref_axis',(-5.55111512312578E-15,0.,-1.));
#339=DIRECTION('',(5.55111512312578E-15,0.,1.));
#340=DIRECTION('',(-5.55111512312578E-15,0.,-1.));
#341=DIRECTION('',(0.,1.,0.));
#342=DIRECTION('center_axis',(1.38777878078145E-15,0.,1.));
#343=DIRECTION('ref_axis',(1.,0.,-1.38777878078145E-15));
#344=DIRECTION('',(1.,0.,-1.38777878078145E-15));
#345=DIRECTION('',(1.,0.,-1.38777878078145E-15));
#346=DIRECTION('',(0.,1.,0.));
#347=DIRECTION('center_axis',(-1.,0.,0.));
#348=DIRECTION('ref_axis',(0.,0.,1.));
#349=DIRECTION('',(0.,0.,1.));
#350=DIRECTION('',(0.,0.,1.));
#351=DIRECTION('center_axis',(0.,1.,0.));
#352=DIRECTION('ref_axis',(0.,0.,1.));
#353=DIRECTION('center_axis',(0.,1.,0.));
#354=DIRECTION('ref_axis',(1.,0.,0.));
#355=DIRECTION('center_axis',(0.,0.,-1.));
#356=DIRECTION('ref_axis',(-1.,0.,0.));
#357=DIRECTION('',(-1.,0.,0.));
#358=DIRECTION('',(0.,1.,0.));
#359=DIRECTION('',(-1.,0.,0.));
#360=DIRECTION('',(0.,1.,0.));
#361=DIRECTION('center_axis',(1.,0.,-3.46944695195362E-16));
#362=DIRECTION('ref_axis',(-3.46944695195362E-16,0.,-1.));
#363=DIRECTION('',(-3.46944695195362E-16,0.,-1.));
#364=DIRECTION('',(-3.46944695195362E-16,0.,-1.));
#365=DIRECTION('',(0.,1.,0.));
#366=DIRECTION('center_axis',(1.38777878078145E-15,0.,1.));
#367=DIRECTION('ref_axis',(1.,0.,-1.38777878078145E-15));
#368=DIRECTION('',(1.,0.,-1.38777878078145E-15));
#369=DIRECTION('',(1.,0.,-1.38777878078145E-15));
#370=DIRECTION('',(0.,1.,0.));
#371=DIRECTION('center_axis',(-1.,0.,5.55111512312578E-15));
#372=DIRECTION('ref_axis',(5.55111512312578E-15,0.,1.));
#373=DIRECTION('',(5.55111512312578E-15,0.,1.));
#374=DIRECTION('',(5.55111512312578E-15,0.,1.));
#375=DIRECTION('center_axis',(0.,1.,0.));
#376=DIRECTION('ref_axis',(0.,0.,1.));
#377=DIRECTION('center_axis',(0.,1.,0.));
#378=DIRECTION('ref_axis',(1.,0.,0.));
#379=DIRECTION('center_axis',(0.,0.,-1.));
#380=DIRECTION('ref_axis',(-1.,0.,0.));
#381=DIRECTION('',(-1.,0.,0.));
#382=DIRECTION('',(0.,1.,0.));
#383=DIRECTION('',(-1.,0.,0.));
#384=DIRECTION('',(0.,1.,0.));
#385=DIRECTION('center_axis',(1.,0.,0.));
#386=DIRECTION('ref_axis',(0.,0.,-1.));
#387=DIRECTION('',(0.,0.,1.));
#388=DIRECTION('',(0.,0.,-1.));
#389=DIRECTION('',(0.,1.,0.));
#390=DIRECTION('center_axis',(1.38777878078145E-15,0.,1.));
#391=DIRECTION('ref_axis',(1.,0.,-1.38777878078145E-15));
#392=DIRECTION('',(1.,0.,-1.38777878078145E-15));
#393=DIRECTION('',(1.,0.,-1.38777878078145E-15));
#394=DIRECTION('',(0.,1.,0.));
#395=DIRECTION('center_axis',(-1.,0.,-3.46944695195361E-16));
#396=DIRECTION('ref_axis',(-3.46944695195361E-16,0.,1.));
#397=DIRECTION('',(-3.46944695195361E-16,0.,1.));
#398=DIRECTION('',(-3.46944695195361E-16,0.,1.));
#399=DIRECTION('center_axis',(0.,1.,0.));
#400=DIRECTION('ref_axis',(0.,0.,1.));
#401=DIRECTION('center_axis',(0.,1.,0.));
#402=DIRECTION('ref_axis',(1.,0.,0.));
#403=CARTESIAN_POINT('',(0.,0.,0.));
#404=CARTESIAN_POINT('Origin',(0.399999999999999,0.,-0.4));
#405=CARTESIAN_POINT('',(0.399999999999999,0.,-0.400000000000002));
#406=CARTESIAN_POINT('',(-0.400000000000001,0.,-0.4));
#407=CARTESIAN_POINT('',(0.799999999999999,0.,-0.4));
#408=CARTESIAN_POINT('',(-0.400000000000001,0.6,-0.4));
#409=CARTESIAN_POINT('',(-0.400000000000001,0.,-0.4));
#410=CARTESIAN_POINT('',(0.399999999999999,0.6,-0.400000000000002));
#411=CARTESIAN_POINT('',(0.799999999999999,0.6,-0.4));
#412=CARTESIAN_POINT('',(0.399999999999999,0.,-0.400000000000002));
#413=CARTESIAN_POINT('Origin',(0.400000000000003,0.,0.399999999999999));
#414=CARTESIAN_POINT('',(0.400000000000003,0.,0.399999999999999));
#415=CARTESIAN_POINT('',(0.399999999999999,0.,-0.400000000000002));
#416=CARTESIAN_POINT('',(0.400000000000003,0.6,0.399999999999999));
#417=CARTESIAN_POINT('',(0.399999999999999,0.6,-0.400000000000002));
#418=CARTESIAN_POINT('',(0.400000000000003,0.,0.399999999999999));
#419=CARTESIAN_POINT('Origin',(-0.400000000000001,0.,0.400000000000001));
#420=CARTESIAN_POINT('',(-0.400000000000001,0.,0.400000000000001));
#421=CARTESIAN_POINT('',(-0.800000000000001,0.,0.400000000000001));
#422=CARTESIAN_POINT('',(-0.400000000000001,0.6,0.400000000000001));
#423=CARTESIAN_POINT('',(-0.800000000000001,0.6,0.400000000000001));
#424=CARTESIAN_POINT('',(-0.400000000000001,0.,0.400000000000001));
#425=CARTESIAN_POINT('Origin',(-0.400000000000001,0.,-0.4));
#426=CARTESIAN_POINT('',(-0.400000000000001,0.,-0.4));
#427=CARTESIAN_POINT('',(-0.400000000000001,0.6,-0.4));
#428=CARTESIAN_POINT('Origin',(1.11022302462516E-15,0.6,-5.55111512312578E-16));
#429=CARTESIAN_POINT('Origin',(1.11022302462516E-15,0.,-5.55111512312578E-16));
#430=CARTESIAN_POINT('Origin',(0.799999999999999,0.,-0.4));
#431=CARTESIAN_POINT('',(0.799999999999999,0.,-0.4));
#432=CARTESIAN_POINT('',(0.399999999999999,0.,-0.400000000000002));
#433=CARTESIAN_POINT('',(0.799999999999999,0.,-0.4));
#434=CARTESIAN_POINT('',(0.399999999999999,0.6,-0.400000000000002));
#435=CARTESIAN_POINT('',(0.399999999999999,0.,-0.400000000000002));
#436=CARTESIAN_POINT('',(0.799999999999999,0.6,-0.4));
#437=CARTESIAN_POINT('',(0.799999999999999,0.6,-0.4));
#438=CARTESIAN_POINT('',(0.799999999999999,0.,-0.4));
#439=CARTESIAN_POINT('Origin',(0.799999999999999,0.,0.399999999999999));
#440=CARTESIAN_POINT('',(0.799999999999999,0.,0.399999999999999));
#441=CARTESIAN_POINT('',(0.799999999999999,0.,0.399999999999999));
#442=CARTESIAN_POINT('',(0.799999999999999,0.6,0.399999999999999));
#443=CARTESIAN_POINT('',(0.799999999999999,0.6,0.399999999999999));
#444=CARTESIAN_POINT('',(0.799999999999999,0.,0.399999999999999));
#445=CARTESIAN_POINT('Origin',(0.400000000000003,0.,0.4));
#446=CARTESIAN_POINT('',(0.400000000000003,0.,0.399999999999999));
#447=CARTESIAN_POINT('',(-0.800000000000001,0.,0.400000000000001));
#448=CARTESIAN_POINT('',(0.400000000000003,0.6,0.399999999999999));
#449=CARTESIAN_POINT('',(-0.800000000000001,0.6,0.400000000000001));
#450=CARTESIAN_POINT('',(0.400000000000003,0.,0.399999999999999));
#451=CARTESIAN_POINT('Origin',(0.399999999999999,0.,-0.400000000000002));
#452=CARTESIAN_POINT('',(0.399999999999999,0.,-0.400000000000002));
#453=CARTESIAN_POINT('',(0.399999999999999,0.6,-0.400000000000002));
#454=CARTESIAN_POINT('Origin',(0.599999999999999,0.6,-1.11022302462516E-15));
#455=CARTESIAN_POINT('Origin',(0.599999999999999,0.,-1.11022302462516E-15));
#456=CARTESIAN_POINT('Origin',(-0.400000000000001,0.,-0.4));
#457=CARTESIAN_POINT('',(-0.400000000000001,0.,-0.4));
#458=CARTESIAN_POINT('',(-0.800000000000001,0.,-0.4));
#459=CARTESIAN_POINT('',(0.799999999999999,0.,-0.4));
#460=CARTESIAN_POINT('',(-0.800000000000001,0.6,-0.4));
#461=CARTESIAN_POINT('',(-0.800000000000001,0.,-0.4));
#462=CARTESIAN_POINT('',(-0.400000000000001,0.6,-0.4));
#463=CARTESIAN_POINT('',(0.799999999999999,0.6,-0.4));
#464=CARTESIAN_POINT('',(-0.400000000000001,0.,-0.4));
#465=CARTESIAN_POINT('Origin',(-0.400000000000001,0.,0.400000000000001));
#466=CARTESIAN_POINT('',(-0.400000000000001,0.,0.400000000000001));
#467=CARTESIAN_POINT('',(-0.400000000000001,0.,-0.4));
#468=CARTESIAN_POINT('',(-0.400000000000001,0.6,0.400000000000001));
#469=CARTESIAN_POINT('',(-0.400000000000001,0.6,-0.4));
#470=CARTESIAN_POINT('',(-0.400000000000001,0.,0.400000000000001));
#471=CARTESIAN_POINT('Origin',(-0.800000000000001,0.,0.400000000000001));
#472=CARTESIAN_POINT('',(-0.800000000000001,0.,0.400000000000001));
#473=CARTESIAN_POINT('',(-0.800000000000001,0.,0.400000000000001));
#474=CARTESIAN_POINT('',(-0.800000000000001,0.6,0.400000000000001));
#475=CARTESIAN_POINT('',(-0.800000000000001,0.6,0.400000000000001));
#476=CARTESIAN_POINT('',(-0.800000000000001,0.,0.400000000000001));
#477=CARTESIAN_POINT('Origin',(-0.800000000000001,0.,-0.4));
#478=CARTESIAN_POINT('',(-0.800000000000001,0.,-0.4));
#479=CARTESIAN_POINT('',(-0.800000000000001,0.6,-0.4));
#480=CARTESIAN_POINT('Origin',(-0.600000000000001,0.6,8.32667268468867E-16));
#481=CARTESIAN_POINT('Origin',(-0.600000000000001,0.,8.32667268468867E-16));
#482=UNCERTAINTY_MEASURE_WITH_UNIT(LENGTH_MEASURE(0.01),#486,
'DISTANCE_ACCURACY_VALUE',
'Maximum model space distance between geometric entities at asserted c
onnectivities');
#483=UNCERTAINTY_MEASURE_WITH_UNIT(LENGTH_MEASURE(0.01),#486,
'DISTANCE_ACCURACY_VALUE',
'Maximum model space distance between geometric entities at asserted c
onnectivities');
#484=(
GEOMETRIC_REPRESENTATION_CONTEXT(3)
GLOBAL_UNCERTAINTY_ASSIGNED_CONTEXT((#482))
GLOBAL_UNIT_ASSIGNED_CONTEXT((#486,#488,#489))
REPRESENTATION_CONTEXT('','3D')
);
#485=(
GEOMETRIC_REPRESENTATION_CONTEXT(3)
GLOBAL_UNCERTAINTY_ASSIGNED_CONTEXT((#483))
GLOBAL_UNIT_ASSIGNED_CONTEXT((#486,#488,#489))
REPRESENTATION_CONTEXT('','3D')
);
#486=(
LENGTH_UNIT()
NAMED_UNIT(*)
SI_UNIT(.MILLI.,.METRE.)
);
#487=(
LENGTH_UNIT()
NAMED_UNIT(*)
SI_UNIT($,.METRE.)
);
#488=(
NAMED_UNIT(*)
PLANE_ANGLE_UNIT()
SI_UNIT($,.RADIAN.)
);
#489=(
NAMED_UNIT(*)
SI_UNIT($,.STERADIAN.)
SOLID_ANGLE_UNIT()
);
#490=SHAPE_DEFINITION_REPRESENTATION(#491,#492);
#491=PRODUCT_DEFINITION_SHAPE('',$,#494);
#492=SHAPE_REPRESENTATION('',(#310),#484);
#493=PRODUCT_DEFINITION_CONTEXT('part definition',#498,'design');
#494=PRODUCT_DEFINITION('Ferriit bead','Ferriit bead v1',#495,#493);
#495=PRODUCT_DEFINITION_FORMATION('',$,#500);
#496=PRODUCT_RELATED_PRODUCT_CATEGORY('Ferriit bead v1',
'Ferriit bead v1',(#500));
#497=APPLICATION_PROTOCOL_DEFINITION('international standard',
'automotive_design',2009,#498);
#498=APPLICATION_CONTEXT(
'Core Data for Automotive Mechanical Design Process');
#499=PRODUCT_CONTEXT('part definition',#498,'mechanical');
#500=PRODUCT('Ferriit bead','Ferriit bead v1',$,(#499));
#501=PRESENTATION_STYLE_ASSIGNMENT((#504));
#502=PRESENTATION_STYLE_ASSIGNMENT((#505));
#503=PRESENTATION_STYLE_ASSIGNMENT((#506));
#504=SURFACE_STYLE_USAGE(.BOTH.,#507);
#505=SURFACE_STYLE_USAGE(.BOTH.,#508);
#506=SURFACE_STYLE_USAGE(.BOTH.,#509);
#507=SURFACE_SIDE_STYLE('',(#510));
#508=SURFACE_SIDE_STYLE('',(#511));
#509=SURFACE_SIDE_STYLE('',(#512));
#510=SURFACE_STYLE_FILL_AREA(#513);
#511=SURFACE_STYLE_FILL_AREA(#514);
#512=SURFACE_STYLE_FILL_AREA(#515);
#513=FILL_AREA_STYLE('Steel - Satin',(#516));
#514=FILL_AREA_STYLE('Steel - Satin',(#517));
#515=FILL_AREA_STYLE('Lead - Satin',(#518));
#516=FILL_AREA_STYLE_COLOUR('Steel - Satin',#519);
#517=FILL_AREA_STYLE_COLOUR('Steel - Satin',#520);
#518=FILL_AREA_STYLE_COLOUR('Lead - Satin',#521);
#519=COLOUR_RGB('Steel - Satin',0.627450980392157,0.627450980392157,0.627450980392157);
#520=COLOUR_RGB('Steel - Satin',0.47843137254902,0.392156862745098,0.266666666666667);
#521=COLOUR_RGB('Lead - Satin',0.815686274509804,0.815686274509804,0.815686274509804);
ENDSEC;
END-ISO-10303-21;
